And I Love Her

Chords:

 

F#m E C#m A  B7 B  E Gm Dm Bb  C7 F

 2  0  5  0  2  2  0  3  1  1  3  1

 2  0  2  2  4  4  0  3  3  3  5  1

 2  1  6  2  2  4  1  0  2  3  3  2

 4  2  2  2  4  4  2  0  0  3  5  3

 4  2  4  0  2  2  2  1  x  1  3  3

 2  x  0  x  x  x  0  3  x  x  x  1

 

 

 

 

Intro: F#m, E, F#m

 

-|-------------------------------------------------------------

-|-------------------------------------------------------------

-|-------------------------------------------------------------

-|-------------------------------------------------------------

-|------7--6--4---------7--6--4---------7--6--4------------

-|---7---------------7---------------7-----------------------

 

 

F#m        C#m

I give her all my love

 

F#m         C#m

That's all I do

 

F#m        C#m

And if you saw my love

 

A              B7

You'd love her too

 

       E

I love her

 

 

 

F#m        C#m

She gives me everything

 

F#m        C#m

And tenderly

 

F#m         C#m

The kiss my lover brings

 

A             B7

She brings to me

 

       E

And I love her

 

 

 

 

C#m          B

A love like ours

 

C#m         Abm

Could never die

 

C#m       Abm

As long as I

 

          B7

Have you near me

 

 

 

 

F#m        C#m

Bright are the stars that shine

 

F#m        C#m

Dark is the sky

 

F#m          C#m

I know this love of mine

 

A             B7

will never die

 

       E

And I love her

 

 

 

Guitar Solo: Gm, Dm, Gm, Dm, Bb, C7, F, Gm

 

     Gm       Dm            Gm         Dm            Gm        Dm

-|-----------------------------------------------------------------------

-|-----------------------------------------------------------------------

-|-----------9--7/10---------------9--9\7-----------------9--7/10----

-|--5--7--8---------------5--7--8----------------5--7--8--------------

-|-----------------------------------------------------------------------

-|-----------------------------------------------------------------------

 

    Bb            C7                 F                           Gm

-|-----------------------------------------------------------------------

-|-----------------------------------------------------------------------

-|--10--7----------------------------------------------------------------

-|---------8--7--7\5--------------/7-------------------------------------

-|-----------------------5--3--5--------3-------------------------------

-|------------------------------------------5--3--1--1/3-----------------

 

 

 

 

Gm             Dm

Bright are the stars that shine

 

Gm             Dm

Dark is the sky

 

Gm               Dm

I know this love of mine

 

Bb         C7

Will never die

 

        F

And I love her

 

 

 

Ending:

 

Gm F Gm D

-|----------------------------------------------------------------

-|----------------------------------------------------------------

-|----------------------------------------------------------------

-|----------------------------------------------------------------

-|------8--7--5---------8--7--5---------8--7--5--------8--7--5----

-|---8---------------8---------------8--------------8-------------

 

 

 

 

Easy CHORDS:

 

 

Em          Bm

I give her all my love

 

Em          Bm

That's all I do

 

Em           Bm

And if you saw my love

 

G                   A

You'd love her too

 

  D

I love her

 

 

 

Em                Bm

She gives me everything

 

Em          Bm

And tenderly

 

Em              Bm

The kiss my lover brings

 

G                  A

She brings to me

 

        D

And I love her

 

 

 

 

Bm           D       Bm             A

A love like ours, could never die

 

Bm          A                         A+D

As long as I have you near me

 

 

 

Em                 Bm

Bright are the stars that shine

 

Em             Bm

Dark is the sky

 

Em             Bm

I know this love of mine

 

G              A

Will never die

 

          D

And I love her. 

 

 

REPEAT LAST VERSE