Cant't Buy Me Love

Chords:

 

Em Am Dm7 G7 C7 F7

 0   0    1      1    3   1

 0   1    1      0    5   1

 0   2    2      0    3   2

 2   2    0      0    5   1

 2   0    x      2    3   3

 x   x    x      3    x   x

 

 

 

                     Em   Am      Em    Am

Can't buy me love,          love,

 

                     Dm7    G7

Can't buy me love.

 

      C7

I'll buy you a diamond ring my friend, if it makes you feel alright.

 

     F7                                             C7

I'll get you anything my friend, if it makes you feel alright.

 

          G7                  F7                                                           C7

Cause I don't care too much for money, money can't buy me love.

 

 

 

      C7

I'll give you all I've got to give, if you say you love me too.

 

    F7                                                   C7

I may not have a lot to give but what I got I'll give to you.

 

G7                  F7                                                       C7

I don't care too much for money, money can't buy me love.

 

 

 

 

                       Em  Am        C7

Can't buy me love,        everybody tells me so.

 

                       Em Am Dm7           G7

Can't buy me love,        no, no, no, no.

 

 

 

  C7

Say you don't need no diamond rings and I'll be satisfied.

 

F7                                                               C7

Tell me that you want the kind of things that money just can't buy.

 

G7                  F7                                                       C7

I don't care too much for money, money can't buy me love.

 

 

 

 

solo: C7 F7 C7 G7 F7 C7

 

 

E|----------------------------------------------------------------||

B|----------------------------------------------------------------||

G|----8--10b~-10b~-10b-10b11r10-8----8--10b-10b--10b12r10-8-------||

D|-10-----------------------------10------------------------10-8--||

A|----------------------------------------------------------------||

E|----------------------------------------------------------------||

 

 

E|--------------------------------------------------------------------||

B|--------------------------------------------------------------------||

G|-----------------2------2--2---2-2---10b-10b-10b-10b12====r10-8-----||

D|-----------------1--1---1--1---1-1------------------------------10--||

A|-10h11p8---------3--3---3--3-0-3-3----------------------------------||

E|---------10/11---1--1---1--1---5-5----------------------------------||

 

 

E|---------------------------------------------------||

B|-0----0--------------------------------------------||

G|-3/4--3/4----------------------3-------------------||

D|-4/5--4/5---5\3---1h3p1----3/5----5\3--1-----------||

A|------------------------3----------------3-(1)--3--||

E|---------------------------------------------------||

 

 

 

 

 

 

 

 

 

                       Em Am          C7

Can't buy me love,          everybody tells me so.

 

                       Em Am Dm7          G7

Can't buy me love,        no, no, no, no.

 

 

 

C7

Say you don't need no diamond rings and I'll be satisfied.

 

F7                                                                C7

Tell me that you want the kind of things that money just can't buy.

 

G7            F7                                                              C7

I don't care too much for money, money can't buy me love.

 

 

 

                      Em Am Em     Am

Can't buy me love,       love,

 

                   Dm7 G7 C7

Can't buy me love,      oh.